  0
SECTION
  2
HEADER
  9
$ACADVER
  1
AC1009
  9
$INSBASE
 10
0.0
 20
0.0
 30
0.0
  9
$EXTMIN
 10
11.63854467547724
 20
18.673542157695142
 30
0.0
  9
$EXTMAX
 10
25.532621448056751
 20
30.706165604880301
 30
0.0
  9
$LIMMIN
 10
0.0
 20
0.0
  9
$LIMMAX
 10
12.0
 20
9.0
  9
$ORTHOMODE
 70
     0
  9
$REGENMODE
 70
     1
  9
$FILLMODE
 70
     1
  9
$QTEXTMODE
 70
     0
  9
$MIRRTEXT
 70
     0
  9
$DRAGMODE
 70
     2
  9
$LTSCALE
 40
1.0
  9
$OSMODE
 70
    39
  9
$ATTMODE
 70
     1
  9
$TEXTSIZE
 40
0.2
  9
$TRACEWID
 40
0.05
  9
$TEXTSTYLE
  7
STANDARD
  9
$CLAYER
  8
0
  9
$CELTYPE
  6
BYLAYER
  9
$CECOLOR
 62
   256
  9
$DIMSCALE
 40
1.0
  9
$DIMASZ
 40
0.18
  9
$DIMEXO
 40
0.0625
  9
$DIMDLI
 40
0.38
  9
$DIMRND
 40
0.0
  9
$DIMDLE
 40
0.0
  9
$DIMEXE
 40
0.18
  9
$DIMTP
 40
0.0
  9
$DIMTM
 40
0.0
  9
$DIMTXT
 40
0.18
  9
$DIMCEN
 40
0.09
  9
$DIMTSZ
 40
0.0
  9
$DIMTOL
 70
     0
  9
$DIMLIM
 70
     0
  9
$DIMTIH
 70
     1
  9
$DIMTOH
 70
     1
  9
$DIMSE1
 70
     0
  9
$DIMSE2
 70
     0
  9
$DIMTAD
 70
     0
  9
$DIMZIN
 70
     0
  9
$DIMBLK
  1

  9
$DIMASO
 70
     1
  9
$DIMSHO
 70
     1
  9
$DIMPOST
  1

  9
$DIMAPOST
  1

  9
$DIMALT
 70
     0
  9
$DIMALTD
 70
     2
  9
$DIMALTF
 40
25.399999999999999
  9
$DIMLFAC
 40
1.0
  9
$DIMTOFL
 70
     0
  9
$DIMTVP
 40
0.0
  9
$DIMTIX
 70
     0
  9
$DIMSOXD
 70
     0
  9
$DIMSAH
 70
     0
  9
$DIMBLK1
  1

  9
$DIMBLK2
  1

  9
$DIMSTYLE
  2
STANDARD
  9
$DIMCLRD
 70
     0
  9
$DIMCLRE
 70
     0
  9
$DIMCLRT
 70
     0
  9
$DIMTFAC
 40
1.0
  9
$DIMGAP
 40
0.09
  9
$LUNITS
 70
     2
  9
$LUPREC
 70
     4
  9
$SKETCHINC
 40
0.1
  9
$FILLETRAD
 40
0.0
  9
$AUNITS
 70
     0
  9
$AUPREC
 70
     0
  9
$MENU
  1
.
  9
$ELEVATION
 40
0.0
  9
$PELEVATION
 40
0.0
  9
$THICKNESS
 40
0.0
  9
$LIMCHECK
 70
     0
  9
$BLIPMODE
 70
     0
  9
$CHAMFERA
 40
0.0
  9
$CHAMFERB
 40
0.0
  9
$SKPOLY
 70
     0
  9
$TDCREATE
 40
2452738.7423719671
  9
$TDUPDATE
 40
2452738.7470772569
  9
$TDINDWG
 40
0.0047058681
  9
$TDUSRTIMER
 40
0.0047057523
  9
$USRTIMER
 70
     1
  9
$ANGBASE
 50
0.0
  9
$ANGDIR
 70
     0
  9
$PDMODE
 70
     0
  9
$PDSIZE
 40
0.0
  9
$PLINEWID
 40
0.0
  9
$COORDS
 70
     1
  9
$SPLFRAME
 70
     0
  9
$SPLINETYPE
 70
     6
  9
$SPLINESEGS
 70
     8
  9
$ATTDIA
 70
     0
  9
$ATTREQ
 70
     1
  9
$HANDLING
 70
     1
  9
$HANDSEED
  5
E7
  9
$SURFTAB1
 70
     6
  9
$SURFTAB2
 70
     6
  9
$SURFTYPE
 70
     6
  9
$SURFU
 70
     6
  9
$SURFV
 70
     6
  9
$UCSNAME
  2

  9
$UCSORG
 10
0.0
 20
0.0
 30
0.0
  9
$UCSXDIR
 10
1.0
 20
0.0
 30
0.0
  9
$UCSYDIR
 10
0.0
 20
1.0
 30
0.0
  9
$PUCSNAME
  2

  9
$PUCSORG
 10
0.0
 20
0.0
 30
0.0
  9
$PUCSXDIR
 10
1.0
 20
0.0
 30
0.0
  9
$PUCSYDIR
 10
0.0
 20
1.0
 30
0.0
  9
$USERI1
 70
     0
  9
$USERI2
 70
     0
  9
$USERI3
 70
     0
  9
$USERI4
 70
     0
  9
$USERI5
 70
     0
  9
$USERR1
 40
0.0
  9
$USERR2
 40
0.0
  9
$USERR3
 40
0.0
  9
$USERR4
 40
0.0
  9
$USERR5
 40
0.0
  9
$WORLDVIEW
 70
     1
  9
$SHADEDGE
 70
     3
  9
$SHADEDIF
 70
    70
  9
$TILEMODE
 70
     1
  9
$MAXACTVP
 70
    64
  9
$PLIMCHECK
 70
     0
  9
$PEXTMIN
 10
0.0
 20
0.0
 30
0.0
  9
$PEXTMAX
 10
0.0
 20
0.0
 30
0.0
  9
$PLIMMIN
 10
0.0
 20
0.0
  9
$PLIMMAX
 10
12.0
 20
9.0
  9
$UNITMODE
 70
     0
  9
$VISRETAIN
 70
     1
  9
$PLINEGEN
 70
     0
  9
$PSLTSCALE
 70
     1
  0
ENDSEC
  0
SECTION
  2
TABLES
  0
TABLE
  2
VPORT
 70
     4
  0
VPORT
  2
*ACTIVE
 70
     0
 10
0.0
 20
0.0
 11
1.0
 21
1.0
 12
18.585583061767
 22
24.689853881287728
 13
0.0
 23
0.0
 14
0.5
 24
0.5
 15
0.5
 25
0.5
 16
0.0
 26
0.0
 36
1.0
 17
0.0
 27
0.0
 37
0.0
 40
14.109384646484891
 41
0.9961464354527937
 42
50.0
 43
0.0
 44
0.0
 50
0.0
 51
0.0
 71
     0
 72
  1000
 73
     1
 74
     3
 75
     0
 76
     0
 77
     0
 78
     0
  0
ENDTAB
  0
TABLE
  2
LTYPE
 70
     1
  0
LTYPE
  2
CONTINUOUS
 70
     0
  3
Solid line
 72
    65
 73
     0
 40
0.0
  0
ENDTAB
  0
TABLE
  2
LAYER
 70
     1
  0
LAYER
  2
0
 70
     0
 62
     7
  6
CONTINUOUS
  0
ENDTAB
  0
TABLE
  2
STYLE
 70
     1
  0
STYLE
  2
STANDARD
 70
     0
 40
0.0
 41
1.0
 50
0.0
 71
     0
 42
0.2
  3
txt
  4

  0
ENDTAB
  0
TABLE
  2
VIEW
 70
     0
  0
ENDTAB
  0
TABLE
  2
UCS
 70
     0
  0
ENDTAB
  0
TABLE
  2
APPID
 70
     1
  0
APPID
  2
ACAD
 70
     0
  0
ENDTAB
  0
TABLE
  2
DIMSTYLE
 70
     1
  0
DIMSTYLE
  2
STANDARD
 70
     0
  3

  4

  5

  6

  7

 40
1.0
 41
0.18
 42
0.0625
 43
0.38
 44
0.18
 45
0.0
 46
0.0
 47
0.0
 48
0.0
140
0.18
141
0.09
142
0.0
143
25.399999999999999
144
1.0
145
0.0
146
1.0
147
0.09
 71
     0
 72
     0
 73
     1
 74
     1
 75
     0
 76
     0
 77
     0
 78
     0
170
     0
171
     2
172
     0
173
     0
174
     0
175
     0
176
     0
177
     0
178
     0
  0
ENDTAB
  0
ENDSEC
  0
SECTION
  2
BLOCKS
  0
BLOCK
  8
0
  2
$MODEL_SPACE
 70
     0
 10
0.0
 20
0.0
 30
0.0
  3
$MODEL_SPACE
  1

  0
ENDBLK
  5
21
  8
0
  0
BLOCK
 67
     1
  8
0
  2
$PAPER_SPACE
 70
     0
 10
0.0
 20
0.0
 30
0.0
  3
$PAPER_SPACE
  1

  0
ENDBLK
  5
5B
 67
     1
  8
0
  0
ENDSEC
  0
SECTION
  2
ENTITIES
  0
LINE
  5
8E
  8
0
 10
20.32234265833943
 20
21.681698019491439
 30
0.0
 11
18.585583061766989
 21
22.147061350840019
 31
0.0
  0
LINE
  5
8F
  8
0
 10
18.585583061766989
 20
22.147061350840019
 30
0.0
 11
16.848823465194549
 21
21.681698019491439
 31
0.0
  0
LINE
  5
92
  8
0
 10
22.05910225491186
 20
18.673542157695149
 30
0.0
 11
15.112063868622119
 21
18.673542157695149
 31
0.0
  0
LINE
  5
93
  8
0
 10
15.112063868622119
 20
18.673542157695149
 30
0.0
 11
13.37530427204968
 21
21.681698019491439
 31
0.0
  0
LINE
  5
94
  8
0
 10
13.37530427204968
 20
21.681698019491439
 30
0.0
 11
11.63854467547724
 21
24.689853881287728
 31
0.0
  0
LINE
  5
97
  8
0
 10
23.795861851484311
 20
21.681698019491439
 30
0.0
 11
22.05910225491187
 21
18.673542157695142
 31
0.0
  0
LINE
  5
98
  8
0
 10
25.532621448056751
 20
24.689853881287728
 30
0.0
 11
23.795861851484311
 21
21.681698019491439
 31
0.0
  0
LINE
  5
99
  8
0
 10
22.059102254911881
 20
30.706165604880301
 30
0.0
 11
25.532621448056751
 21
24.689853881287728
 31
0.0
  0
LINE
  5
9C
  8
0
 10
20.787705989688028
 20
25.961250146511581
 30
0.0
 11
22.059102254911881
 21
24.689853881287728
 31
0.0
  0
LINE
  5
9D
  8
0
 10
20.322342658339441
 20
27.698009743084011
 30
0.0
 11
20.787705989688028
 21
25.961250146511581
 31
0.0
  0
LINE
  5
A0
  8
0
 10
18.585583061767
 20
30.706165604880301
 30
0.0
 11
22.059102254911881
 21
30.706165604880301
 31
0.0
  0
LINE
  5
A1
  8
0
 10
15.11206386862213
 20
30.706165604880301
 30
0.0
 11
18.585583061767
 21
30.706165604880301
 31
0.0
  0
LINE
  5
A2
  8
0
 10
11.638544675477251
 20
24.689853881287728
 30
0.0
 11
15.11206386862213
 21
30.706165604880301
 31
0.0
  0
LINE
  5
A5
  8
0
 10
16.383460133845968
 20
25.961250146511581
 30
0.0
 11
16.84882346519456
 21
27.698009743084022
 31
0.0
  0
LINE
  5
A6
  8
0
 10
15.112063868622119
 20
24.689853881287739
 30
0.0
 11
16.383460133845968
 21
25.961250146511581
 31
0.0
  0
LINE
  5
AA
  8
0
 10
17.484521597806481
 20
24.054155748675811
 30
0.0
 11
18.585583061766989
 21
24.689853881287728
 31
0.0
  0
LINE
  5
AB
  8
0
 10
17.484521597806481
 20
24.054155748675811
 30
0.0
 11
18.585583061766989
 21
22.147061350840019
 31
0.0
  0
LINE
  5
AC
  8
0
 10
17.484521597806481
 20
24.054155748675811
 30
0.0
 11
18.585583061767
 21
30.706165604880301
 31
0.0
  0
LINE
  5
AD
  8
0
 10
19.686644525727509
 20
24.054155748675811
 30
0.0
 11
18.585583061767
 21
24.689853881287728
 31
0.0
  0
LINE
  5
AE
  8
0
 10
19.686644525727509
 20
24.054155748675811
 30
0.0
 11
13.37530427204968
 21
21.681698019491449
 31
0.0
  0
LINE
  5
AF
  8
0
 10
19.686644525727509
 20
24.054155748675811
 30
0.0
 11
20.787705989688028
 21
25.961250146511581
 31
0.0
  0
LINE
  5
B0
  8
0
 10
18.585583061767
 20
25.961250146511581
 30
0.0
 11
18.585583061767
 21
24.689853881287728
 31
0.0
  0
LINE
  5
B1
  8
0
 10
18.585583061767
 20
25.961250146511581
 30
0.0
 11
23.795861851484311
 21
21.681698019491431
 31
0.0
  0
LINE
  5
B2
  8
0
 10
18.585583061767
 20
25.961250146511581
 30
0.0
 11
16.383460133845968
 21
25.961250146511581
 31
0.0
  0
LINE
  5
B3
  8
0
 10
15.11206386862213
 20
30.706165604880301
 30
0.0
 11
13.375304272049689
 21
24.224490549939151
 31
0.0
  0
LINE
  5
B4
  8
0
 10
13.375304272049689
 20
24.224490549939151
 30
0.0
 11
16.84882346519456
 21
27.698009743084022
 31
0.0
  0
LINE
  5
B5
  8
0
 10
11.638544675477251
 20
24.689853881287728
 30
0.0
 11
16.383460133845979
 21
29.434769339656459
 31
0.0
  0
LINE
  5
B6
  8
0
 10
16.383460133845979
 20
29.434769339656459
 30
0.0
 11
15.112063868622119
 21
24.689853881287739
 31
0.0
  0
LINE
  5
B7
  8
0
 10
16.383460133845979
 20
29.434769339656459
 30
0.0
 11
20.787705989688028
 21
29.434769339656452
 31
0.0
  0
LINE
  5
B8
  8
0
 10
16.84882346519456
 20
27.698009743084022
 30
0.0
 11
20.322342658339441
 21
27.698009743084011
 31
0.0
  0
LINE
  5
B9
  8
0
 10
16.848823465194549
 20
21.681698019491439
 30
0.0
 11
15.112063868622119
 21
24.689853881287739
 31
0.0
  0
LINE
  5
BA
  8
0
 10
15.57742719997071
 20
20.4103017542676
 30
0.0
 11
13.37530427204968
 21
24.224490549939159
 31
0.0
  0
LINE
  5
BB
  8
0
 10
15.57742719997071
 20
20.4103017542676
 30
0.0
 11
20.32234265833943
 21
21.681698019491439
 31
0.0
  0
LINE
  5
BC
  8
0
 10
21.593738923563269
 20
20.410301754267589
 30
0.0
 11
16.848823465194549
 21
21.681698019491439
 31
0.0
  0
LINE
  5
BD
  8
0
 10
15.112063868622119
 20
18.673542157695159
 30
0.0
 11
21.593738923563269
 21
20.410301754267589
 31
0.0
  0
LINE
  5
BE
  8
0
 10
22.05910225491186
 20
18.673542157695159
 30
0.0
 11
15.57742719997071
 21
20.4103017542676
 31
0.0
  0
LINE
  5
BF
  8
0
 10
22.05910225491187
 20
24.689853881287721
 30
0.0
 11
20.32234265833943
 21
21.681698019491431
 31
0.0
  0
LINE
  5
C0
  8
0
 10
23.795861851484311
 20
24.22449054993913
 30
0.0
 11
21.593738923563269
 21
20.410301754267579
 31
0.0
  0
LINE
  5
C1
  8
0
 10
23.795861851484311
 20
24.22449054993913
 30
0.0
 11
20.322342658339441
 21
27.698009743084011
 31
0.0
  0
LINE
  5
C2
  8
0
 10
20.787705989688028
 20
29.434769339656441
 30
0.0
 11
22.05910225491187
 21
24.689853881287721
 31
0.0
  0
LINE
  5
C3
  8
0
 10
25.532621448056751
 20
24.689853881287721
 30
0.0
 11
20.787705989688028
 21
29.434769339656441
 31
0.0
  0
LINE
  5
C4
  8
0
 10
22.059102254911881
 20
30.70616560488029
 30
0.0
 11
23.795861851484311
 21
24.22449054993913
 31
0.0
  0
ENDSEC
  0
EOF
